ISO-10303-21;
HEADER;
FILE_DESCRIPTION (( 'STEP AP203' ),
    '1' );
FILE_NAME ('Q-QZWP-R4-20-1030-M.STEP',
    '2020-12-23T01:24:53',
    ( '' ),
    ( '' ),
    'SwSTEP 2.0',
    'SolidWorks 2020',
    '' );
FILE_SCHEMA (( 'CONFIG_CONTROL_DESIGN' ));
ENDSEC;

DATA;
#1 = FACE_OUTER_BOUND ( 'NONE', #288, .T. ) ;
#2 = APPLICATION_CONTEXT ( 'configuration controlled 3d designs of mechanical parts and assemblies' ) ;
#3 = EDGE_LOOP ( 'NONE', ( #181, #233, #158, #185 ) ) ;
#4 = CC_DESIGN_APPROVAL ( #242, ( #251 ) ) ;
#5 = ORIENTED_EDGE ( 'NONE', *, *, #204, .F. ) ;
#6 = MANIFOLD_SOLID_BREP ( 'Ðý×', #229 ) ;
#7 = EDGE_CURVE ( 'NONE', #311, #316, #10, .T. ) ;
#8 = ORIENTED_EDGE ( 'NONE', *, *, #237, .T. ) ;
#9 = ORIENTED_EDGE ( 'NONE', *, *, #12, .T. ) ;
#10 = LINE ( 'NONE', #136, #44 ) ;
#11 = CARTESIAN_POINT ( 'NONE',  ( -2.500000000000000444, 0.000000000000000000, 0.000000000000000000 ) ) ;
#12 = EDGE_CURVE ( 'NONE', #259, #157, #215, .T. ) ;
#13 = FACE_OUTER_BOUND ( 'NONE', #131, .T. ) ;
#14 = APPROVAL_STATUS ( 'not_yet_approved' ) ;
#15 = CIRCLE ( 'NONE', #59, 10.00000000000000000 ) ;
#16 = COORDINATED_UNIVERSAL_TIME_OFFSET ( 8, 0, .AHEAD. ) ;
#17 = PERSON_AND_ORGANIZATION_ROLE ( 'creator' ) ;
#18 = EDGE_CURVE ( 'NONE', #84, #60, #152, .T. ) ;
#19 = CALENDAR_DATE ( 2020, 23, 12 ) ;
#20 = AXIS2_PLACEMENT_3D ( 'NONE', #96, #23, #52 ) ;
#21 =( NAMED_UNIT ( * ) SI_UNIT ( $, .STERADIAN. ) SOLID_ANGLE_UNIT ( ) );
#22 = CIRCLE ( 'NONE', #76, 12.69999999999999929 ) ;
#23 = DIRECTION ( 'NONE',  ( -1.000000000000000000, -0.000000000000000000, -0.000000000000000000 ) ) ;
#24 = DIRECTION ( 'NONE',  ( -1.000000000000000000, -0.000000000000000000, -0.000000000000000000 ) ) ;
#25 = CC_DESIGN_PERSON_AND_ORGANIZATION_ASSIGNMENT ( #298, #248, ( #101 ) ) ;
#26 = CARTESIAN_POINT ( 'NONE',  ( 3.000000000000000000, 0.000000000000000000, 0.000000000000000000 ) ) ;
#27 = AXIS2_PLACEMENT_3D ( 'NONE', #110, #39, #186 ) ;
#28 = DIRECTION ( 'NONE',  ( 0.000000000000000000, 0.000000000000000000, 1.000000000000000000 ) ) ;
#29 = APPROVAL ( #95, 'UNSPECIFIED' ) ;
#30 = CARTESIAN_POINT ( 'NONE',  ( -1.614212418857619014, 0.000000000000000000, 0.000000000000000000 ) ) ;
#31 = VERTEX_POINT ( 'NONE', #161 ) ;
#32 = EDGE_LOOP ( 'NONE', ( #81, #279 ) ) ;
#33 = AXIS2_PLACEMENT_3D ( 'NONE', #151, #75, #304 ) ;
#34 = ORIENTED_EDGE ( 'NONE', *, *, #234, .T. ) ;
#35 = CC_DESIGN_PERSON_AND_ORGANIZATION_ASSIGNMENT ( #218, #194, ( #307 ) ) ;
#36 = VECTOR ( 'NONE', #255, 1000.000000000000000 ) ;
#37 = EDGE_LOOP ( 'NONE', ( #83, #289 ) ) ;
#38 = FACE_OUTER_BOUND ( 'NONE', #303, .T. ) ;
#39 = DIRECTION ( 'NONE',  ( -1.000000000000000000, -0.000000000000000000, -0.000000000000000000 ) ) ;
#40 = LINE ( 'NONE', #138, #213 ) ;
#41 = CARTESIAN_POINT ( 'NONE',  ( -1.614212418857619014, 0.000000000000000000, 0.000000000000000000 ) ) ;
#42 = CALENDAR_DATE ( 2020, 23, 12 ) ;
#43 = APPROVAL_STATUS ( 'not_yet_approved' ) ;
#44 = VECTOR ( 'NONE', #243, 1000.000000000000000 ) ;
#45 = ADVANCED_FACE ( 'NONE', ( #216 ), #62, .F. ) ;
#46 = PERSON_AND_ORGANIZATION_ROLE ( 'creator' ) ;
#47 = LOCAL_TIME ( 9, 24, 53.00000000000000000, #113 ) ;
#48 = CYLINDRICAL_SURFACE ( 'NONE', #20, 12.69999999999999929 ) ;
#49 = ADVANCED_FACE ( 'NONE', ( #38 ), #315, .F. ) ;
#50 = FACE_OUTER_BOUND ( 'NONE', #210, .T. ) ;
#51 = CIRCLE ( 'NONE', #253, 12.69999999999999929 ) ;
#52 = DIRECTION ( 'NONE',  ( 0.000000000000000000, 0.000000000000000000, 1.000000000000000000 ) ) ;
#53 = CC_DESIGN_SECURITY_CLASSIFICATION ( #251, ( #307 ) ) ;
#54 = DIRECTION ( 'NONE',  ( -1.000000000000000000, -0.000000000000000000, -0.000000000000000000 ) ) ;
#55 = AXIS2_PLACEMENT_3D ( 'NONE', #146, #198, #122 ) ;
#56 = CYLINDRICAL_SURFACE ( 'NONE', #238, 10.00000000000000000 ) ;
#57 = DIRECTION ( 'NONE',  ( -1.000000000000000000, -0.000000000000000000, -0.000000000000000000 ) ) ;
#58 = ORIENTED_EDGE ( 'NONE', *, *, #226, .T. ) ;
#59 = AXIS2_PLACEMENT_3D ( 'NONE', #256, #277, #274 ) ;
#60 = VERTEX_POINT ( 'NONE', #135 ) ;
#61 = ORIENTED_EDGE ( 'NONE', *, *, #330, .F. ) ;
#62 = PLANE ( 'NONE',  #305 ) ;
#63 = APPROVAL_PERSON_ORGANIZATION ( #145, #29, #141 ) ;
#64 = ORIENTED_EDGE ( 'NONE', *, *, #133, .F. ) ;
#65 = EDGE_CURVE ( 'NONE', #313, #170, #265, .T. ) ;
#66 = CARTESIAN_POINT ( 'NONE',  ( -3.000000000000000444, 1.224646799147353256E-15, -10.00000000000000000 ) ) ;
#67 = CIRCLE ( 'NONE', #223, 10.00000000000000000 ) ;
#68 = CARTESIAN_POINT ( 'NONE',  ( 2.999999999999999112, 12.69999999999999929, 0.000000000000000000 ) ) ;
#69 = CALENDAR_DATE ( 2020, 23, 12 ) ;
#70 = DATE_AND_TIME ( #249, #149 ) ;
#71 = DIRECTION ( 'NONE',  ( 1.000000000000000000, 0.000000000000000000, 0.000000000000000000 ) ) ;
#72 = APPLICATION_PROTOCOL_DEFINITION ( 'international standard', 'config_control_design', 1994, #2 ) ;
#73 = CARTESIAN_POINT ( 'NONE',  ( -1.614212418857619014, 1.555301434917138433E-15, -12.69999999999999929 ) ) ;
#74 = PERSON ( 'UNSPECIFIED', 'UNSPECIFIED', 'UNSPECIFIED', ('UNSPECIFIED'), ('UNSPECIFIED'), ('UNSPECIFIED') ) ;
#75 = DIRECTION ( 'NONE',  ( -1.000000000000000000, -0.000000000000000000, -0.000000000000000000 ) ) ;
#76 = AXIS2_PLACEMENT_3D ( 'NONE', #26, #99, #199 ) ;
#77 = LOCAL_TIME ( 9, 24, 53.00000000000000000, #16 ) ;
#78 = CARTESIAN_POINT ( 'NONE',  ( -3.000000000000000000, 0.000000000000000000, 12.69999999999999929 ) ) ;
#79 = AXIS2_PLACEMENT_3D ( 'NONE', #207, #175, #102 ) ;
#80 = DIRECTION ( 'NONE',  ( 0.000000000000000000, 0.000000000000000000, 1.000000000000000000 ) ) ;
#81 = ORIENTED_EDGE ( 'NONE', *, *, #18, .F. ) ;
#82 = PRODUCT_DEFINITION ( 'UNKNOWN', '', #307, #190 ) ;
#83 = ORIENTED_EDGE ( 'NONE', *, *, #226, .F. ) ;
#84 = VERTEX_POINT ( 'NONE', #322 ) ;
#85 = DIRECTION ( 'NONE',  ( -1.000000000000000000, -0.000000000000000000, -0.000000000000000000 ) ) ;
#86 = ORIENTED_EDGE ( 'NONE', *, *, #144, .T. ) ;
#87 = DIRECTION ( 'NONE',  ( -1.000000000000000000, -0.000000000000000000, -0.000000000000000000 ) ) ;
#88 = PLANE ( 'NONE',  #100 ) ;
#89 = AXIS2_PLACEMENT_3D ( 'NONE', #30, #57, #80 ) ;
#90 = SECURITY_CLASSIFICATION_LEVEL ( 'unclassified' ) ;
#91 = DIRECTION ( 'NONE',  ( 0.000000000000000000, 0.000000000000000000, 1.000000000000000000 ) ) ;
#92 = APPROVAL_DATE_TIME ( #70, #242 ) ;
#93 =( GEOMETRIC_REPRESENTATION_CONTEXT ( 3 ) GLOBAL_UNCERTAINTY_ASSIGNED_CONTEXT ( ( #112 ) ) GLOBAL_UNIT_ASSIGNED_CONTEXT ( ( #150, #273, #21 ) ) REPRESENTATION_CONTEXT ( 'NONE', 'WORKASPACE' ) );
#94 = DATE_AND_TIME ( #119, #77 ) ;
#95 = APPROVAL_STATUS ( 'not_yet_approved' ) ;
#96 = CARTESIAN_POINT ( 'NONE',  ( -1.614212418857619014, 0.000000000000000000, 0.000000000000000000 ) ) ;
#97 = DIRECTION ( 'NONE',  ( 0.000000000000000000, 0.000000000000000000, 1.000000000000000000 ) ) ;
#98 = PLANE ( 'NONE',  #55 ) ;
#99 = DIRECTION ( 'NONE',  ( -1.000000000000000000, -0.000000000000000000, -0.000000000000000000 ) ) ;
#100 = AXIS2_PLACEMENT_3D ( 'NONE', #68, #166, #269 ) ;
#101 = PRODUCT ( 'Q-QZWP-R4-20-1030-M', 'Q-QZWP-R4-20-1030-M', '', ( #272 ) ) ;
#102 = DIRECTION ( 'NONE',  ( 0.000000000000000000, 0.000000000000000000, -1.000000000000000000 ) ) ;
#103 = PLANE ( 'NONE',  #79 ) ;
#104 = PRODUCT_DEFINITION_SHAPE ( 'NONE', 'NONE',  #82 ) ;
#105 = EDGE_LOOP ( 'NONE', ( #5, #287, #261, #155 ) ) ;
#106 = VERTEX_POINT ( 'NONE', #192 ) ;
#107 = ORIENTED_EDGE ( 'NONE', *, *, #12, .F. ) ;
#108 = EDGE_LOOP ( 'NONE', ( #214, #128, #9, #282 ) ) ;
#109 = ORIENTED_EDGE ( 'NONE', *, *, #204, .T. ) ;
#110 = CARTESIAN_POINT ( 'NONE',  ( 2.500000000000000888, 0.000000000000000000, 0.000000000000000000 ) ) ;
#111 = DIRECTION ( 'NONE',  ( -1.000000000000000000, -0.000000000000000000, -0.000000000000000000 ) ) ;
#112 = UNCERTAINTY_MEASURE_WITH_UNIT (LENGTH_MEASURE( 1.000000000000000082E-05 ), #150, 'distance_accuracy_value', 'NONE');
#113 = COORDINATED_UNIVERSAL_TIME_OFFSET ( 8, 0, .AHEAD. ) ;
#114 = CARTESIAN_POINT ( 'NONE',  ( 2.999999999999999112, 0.000000000000000000, 10.00000000000000000 ) ) ;
#115 = APPROVAL_ROLE ( '' ) ;
#116 = APPROVAL_DATE_TIME ( #94, #29 ) ;
#117 = DATE_AND_TIME ( #42, #47 ) ;
#118 = CIRCLE ( 'NONE', #231, 12.69999999999999929 ) ;
#119 = CALENDAR_DATE ( 2020, 23, 12 ) ;
#120 = DIRECTION ( 'NONE',  ( 0.000000000000000000, 0.000000000000000000, 1.000000000000000000 ) ) ;
#121 = DIRECTION ( 'NONE',  ( 0.000000000000000000, 0.000000000000000000, -1.000000000000000000 ) ) ;
#122 = DIRECTION ( 'NONE',  ( 0.000000000000000000, 0.000000000000000000, -1.000000000000000000 ) ) ;
#123 = LINE ( 'NONE', #73, #219 ) ;
#124 = CARTESIAN_POINT ( 'NONE',  ( -3.000000000000000000, 0.000000000000000000, 0.000000000000000000 ) ) ;
#125 = VECTOR ( 'NONE', #244, 1000.000000000000000 ) ;
#126 = CARTESIAN_POINT ( 'NONE',  ( -3.000000000000000444, 0.000000000000000000, 0.000000000000000000 ) ) ;
#127 = LINE ( 'NONE', #275, #36 ) ;
#128 = ORIENTED_EDGE ( 'NONE', *, *, #133, .T. ) ;
#129 = CC_DESIGN_DATE_AND_TIME_ASSIGNMENT ( #268, #142, ( #251 ) ) ;
#130 = AXIS2_PLACEMENT_3D ( 'NONE', #254, #54, #227 ) ;
#131 = EDGE_LOOP ( 'NONE', ( #8, #236, #208, #107 ) ) ;
#132 = EDGE_LOOP ( 'NONE', ( #312, #64 ) ) ;
#133 = EDGE_CURVE ( 'NONE', #313, #259, #314, .T. ) ;
#134 = ORIENTED_EDGE ( 'NONE', *, *, #306, .F. ) ;
#135 = CARTESIAN_POINT ( 'NONE',  ( 2.500000000000000888, 1.224646799147353256E-15, -10.00000000000000000 ) ) ;
#136 = CARTESIAN_POINT ( 'NONE',  ( -1.614212418857619014, 0.000000000000000000, 12.69999999999999929 ) ) ;
#137 = CARTESIAN_POINT ( 'NONE',  ( -1.614212418857619014, 1.224646799147353256E-15, -10.00000000000000000 ) ) ;
#138 = CARTESIAN_POINT ( 'NONE',  ( -1.614212418857619014, 1.224646799147353256E-15, -10.00000000000000000 ) ) ;
#139 = PERSON_AND_ORGANIZATION ( #74, #278 ) ;
#140 = EDGE_CURVE ( 'NONE', #60, #84, #167, .T. ) ;
#141 = APPROVAL_ROLE ( '' ) ;
#142 = DATE_TIME_ROLE ( 'classification_date' ) ;
#143 = AXIS2_PLACEMENT_3D ( 'NONE', #297, #325, #71 ) ;
#144 = EDGE_CURVE ( 'NONE', #106, #60, #40, .T. ) ;
#145 = PERSON_AND_ORGANIZATION ( #74, #278 ) ;
#146 = CARTESIAN_POINT ( 'NONE',  ( -2.500000000000000444, 10.00000000000000000, 0.000000000000000000 ) ) ;
#147 = AXIS2_PLACEMENT_3D ( 'NONE', #154, #281, #177 ) ;
#148 = CARTESIAN_POINT ( 'NONE',  ( 3.000000000000000000, 1.555301434917138433E-15, -12.69999999999999929 ) ) ;
#149 = LOCAL_TIME ( 9, 24, 53.00000000000000000, #323 ) ;
#150 =( LENGTH_UNIT ( ) NAMED_UNIT ( * ) SI_UNIT ( .MILLI., .METRE. ) );
#151 = CARTESIAN_POINT ( 'NONE',  ( -1.614212418857619014, 0.000000000000000000, 0.000000000000000000 ) ) ;
#152 = CIRCLE ( 'NONE', #27, 10.00000000000000000 ) ;
#153 = CARTESIAN_POINT ( 'NONE',  ( -1.614212418857619014, 0.000000000000000000, 0.000000000000000000 ) ) ;
#154 = CARTESIAN_POINT ( 'NONE',  ( 2.999999999999999112, 0.000000000000000000, 0.000000000000000000 ) ) ;
#155 = ORIENTED_EDGE ( 'NONE', *, *, #234, .F. ) ;
#156 = AXIS2_PLACEMENT_3D ( 'NONE', #291, #217, #91 ) ;
#157 = VERTEX_POINT ( 'NONE', #295 ) ;
#158 = ORIENTED_EDGE ( 'NONE', *, *, #321, .T. ) ;
#159 = APPROVAL_PERSON_ORGANIZATION ( #320, #331, #165 ) ;
#160 = EDGE_LOOP ( 'NONE', ( #174, #180 ) ) ;
#161 = CARTESIAN_POINT ( 'NONE',  ( -3.000000000000000000, 1.555301434917138433E-15, -12.69999999999999929 ) ) ;
#162 = FACE_BOUND ( 'NONE', #160, .T. ) ;
#163 = DIRECTION ( 'NONE',  ( 0.000000000000000000, 0.000000000000000000, -1.000000000000000000 ) ) ;
#164 = DATE_TIME_ROLE ( 'creation_date' ) ;
#165 = APPROVAL_ROLE ( '' ) ;
#166 = DIRECTION ( 'NONE',  ( -1.000000000000000000, 0.000000000000000000, -0.000000000000000000 ) ) ;
#167 = CIRCLE ( 'NONE', #156, 10.00000000000000000 ) ;
#168 = CARTESIAN_POINT ( 'NONE',  ( -3.000000000000000000, 0.000000000000000000, 0.000000000000000000 ) ) ;
#169 = DIRECTION ( 'NONE',  ( 1.000000000000000000, 0.000000000000000000, 0.000000000000000000 ) ) ;
#170 = VERTEX_POINT ( 'NONE', #66 ) ;
#171 = CIRCLE ( 'NONE', #130, 10.00000000000000000 ) ;
#172 = CARTESIAN_POINT ( 'NONE',  ( -2.500000000000000444, 0.000000000000000000, 0.000000000000000000 ) ) ;
#173 = CC_DESIGN_PERSON_AND_ORGANIZATION_ASSIGNMENT ( #139, #17, ( #307 ) ) ;
#174 = ORIENTED_EDGE ( 'NONE', *, *, #283, .T. ) ;
#175 = DIRECTION ( 'NONE',  ( 1.000000000000000000, 0.000000000000000000, 0.000000000000000000 ) ) ;
#176 = ADVANCED_FACE ( 'NONE', ( #13 ), #245, .F. ) ;
#177 = DIRECTION ( 'NONE',  ( 0.000000000000000000, 0.000000000000000000, 1.000000000000000000 ) ) ;
#178 = VERTEX_POINT ( 'NONE', #114 ) ;
#179 = CARTESIAN_POINT ( 'NONE',  ( -2.500000000000000444, 0.000000000000000000, 10.00000000000000000 ) ) ;
#180 = ORIENTED_EDGE ( 'NONE', *, *, #196, .T. ) ;
#181 = ORIENTED_EDGE ( 'NONE', *, *, #144, .F. ) ;
#182 = AXIS2_PLACEMENT_3D ( 'NONE', #290, #85, #184 ) ;
#183 = ORIENTED_EDGE ( 'NONE', *, *, #196, .F. ) ;
#184 = DIRECTION ( 'NONE',  ( 0.000000000000000000, 0.000000000000000000, 1.000000000000000000 ) ) ;
#185 = ORIENTED_EDGE ( 'NONE', *, *, #18, .T. ) ;
#186 = DIRECTION ( 'NONE',  ( 0.000000000000000000, 0.000000000000000000, 1.000000000000000000 ) ) ;
#187 = APPLICATION_CONTEXT ( 'configuration controlled 3d designs of mechanical parts and assemblies' ) ;
#188 = ADVANCED_FACE ( 'NONE', ( #189, #162 ), #88, .F. ) ;
#189 = FACE_OUTER_BOUND ( 'NONE', #37, .T. ) ;
#190 = DESIGN_CONTEXT ( 'detailed design', #2, 'design' ) ;
#191 = PERSON_AND_ORGANIZATION_ROLE ( 'classification_officer' ) ;
#192 = CARTESIAN_POINT ( 'NONE',  ( 2.999999999999999112, 1.224646799147353256E-15, -10.00000000000000000 ) ) ;
#193 = ADVANCED_BREP_SHAPE_REPRESENTATION ( 'Q-QZWP-R4-20-1030-M', ( #6, #143 ), #93 ) ;
#194 = PERSON_AND_ORGANIZATION_ROLE ( 'design_supplier' ) ;
#195 = APPLICATION_PROTOCOL_DEFINITION ( 'international standard', 'config_control_design', 1994, #187 ) ;
#196 = EDGE_CURVE ( 'NONE', #106, #178, #15, .T. ) ;
#197 = DATE_AND_TIME ( #19, #324 ) ;
#198 = DIRECTION ( 'NONE',  ( 1.000000000000000000, 0.000000000000000000, 0.000000000000000000 ) ) ;
#199 = DIRECTION ( 'NONE',  ( 0.000000000000000000, 0.000000000000000000, 1.000000000000000000 ) ) ;
#200 = DIRECTION ( 'NONE',  ( 0.000000000000000000, 0.000000000000000000, 1.000000000000000000 ) ) ;
#201 = EDGE_CURVE ( 'NONE', #170, #157, #171, .T. ) ;
#202 = AXIS2_PLACEMENT_3D ( 'NONE', #41, #111, #266 ) ;
#203 = CC_DESIGN_APPROVAL ( #331, ( #307 ) ) ;
#204 = EDGE_CURVE ( 'NONE', #212, #31, #123, .T. ) ;
#205 = FACE_OUTER_BOUND ( 'NONE', #108, .T. ) ;
#206 = CIRCLE ( 'NONE', #235, 12.69999999999999929 ) ;
#207 = CARTESIAN_POINT ( 'NONE',  ( -3.000000000000000000, 10.00000000000000000, 0.000000000000000000 ) ) ;
#208 = ORIENTED_EDGE ( 'NONE', *, *, #201, .T. ) ;
#209 = ADVANCED_FACE ( 'NONE', ( #50 ), #300, .T. ) ;
#210 = EDGE_LOOP ( 'NONE', ( #58, #109, #61, #228 ) ) ;
#211 = CC_DESIGN_PERSON_AND_ORGANIZATION_ASSIGNMENT ( #293, #191, ( #251 ) ) ;
#212 = VERTEX_POINT ( 'NONE', #148 ) ;
#213 = VECTOR ( 'NONE', #319, 1000.000000000000000 ) ;
#214 = ORIENTED_EDGE ( 'NONE', *, *, #65, .F. ) ;
#215 = LINE ( 'NONE', #317, #271 ) ;
#216 = FACE_OUTER_BOUND ( 'NONE', #32, .T. ) ;
#217 = DIRECTION ( 'NONE',  ( -1.000000000000000000, -0.000000000000000000, -0.000000000000000000 ) ) ;
#218 = PERSON_AND_ORGANIZATION ( #74, #278 ) ;
#219 = VECTOR ( 'NONE', #24, 1000.000000000000000 ) ;
#220 = PERSON_AND_ORGANIZATION ( #74, #278 ) ;
#221 = PERSON_AND_ORGANIZATION ( #74, #278 ) ;
#222 = AXIS2_PLACEMENT_3D ( 'NONE', #126, #230, #258 ) ;
#223 = AXIS2_PLACEMENT_3D ( 'NONE', #172, #169, #121 ) ;
#224 = APPROVAL_PERSON_ORGANIZATION ( #220, #242, #115 ) ;
#225 = CARTESIAN_POINT ( 'NONE',  ( 3.000000000000000000, 0.000000000000000000, 0.000000000000000000 ) ) ;
#226 = EDGE_CURVE ( 'NONE', #311, #212, #22, .T. ) ;
#227 = DIRECTION ( 'NONE',  ( 0.000000000000000000, 0.000000000000000000, 1.000000000000000000 ) ) ;
#228 = ORIENTED_EDGE ( 'NONE', *, *, #7, .F. ) ;
#229 = CLOSED_SHELL ( 'NONE', ( #209, #176, #49, #45, #302, #292, #260, #326, #188, #332 ) ) ;
#230 = DIRECTION ( 'NONE',  ( -1.000000000000000000, -0.000000000000000000, -0.000000000000000000 ) ) ;
#231 = AXIS2_PLACEMENT_3D ( 'NONE', #168, #327, #120 ) ;
#232 = FACE_BOUND ( 'NONE', #240, .T. ) ;
#233 = ORIENTED_EDGE ( 'NONE', *, *, #283, .F. ) ;
#234 = EDGE_CURVE ( 'NONE', #31, #316, #206, .T. ) ;
#235 = AXIS2_PLACEMENT_3D ( 'NONE', #124, #329, #200 ) ;
#236 = ORIENTED_EDGE ( 'NONE', *, *, #65, .T. ) ;
#237 = EDGE_CURVE ( 'NONE', #259, #313, #67, .T. ) ;
#238 = AXIS2_PLACEMENT_3D ( 'NONE', #153, #257, #28 ) ;
#239 = ORIENTED_EDGE ( 'NONE', *, *, #330, .T. ) ;
#240 = EDGE_LOOP ( 'NONE', ( #134, #263 ) ) ;
#241 = CARTESIAN_POINT ( 'NONE',  ( 2.500000000000000444, 10.00000000000000000, 0.000000000000000000 ) ) ;
#242 = APPROVAL ( #14, 'UNSPECIFIED' ) ;
#243 = DIRECTION ( 'NONE',  ( -1.000000000000000000, -0.000000000000000000, -0.000000000000000000 ) ) ;
#244 = DIRECTION ( 'NONE',  ( -1.000000000000000000, -0.000000000000000000, -0.000000000000000000 ) ) ;
#245 = CYLINDRICAL_SURFACE ( 'NONE', #202, 10.00000000000000000 ) ;
#246 = COORDINATED_UNIVERSAL_TIME_OFFSET ( 8, 0, .AHEAD. ) ;
#247 = EDGE_CURVE ( 'NONE', #212, #311, #51, .T. ) ;
#248 = PERSON_AND_ORGANIZATION_ROLE ( 'design_owner' ) ;
#249 = CALENDAR_DATE ( 2020, 23, 12 ) ;
#250 = COORDINATED_UNIVERSAL_TIME_OFFSET ( 8, 0, .AHEAD. ) ;
#251 = SECURITY_CLASSIFICATION ( '', '', #90 ) ;
#252 = FACE_OUTER_BOUND ( 'NONE', #105, .T. ) ;
#253 = AXIS2_PLACEMENT_3D ( 'NONE', #225, #328, #97 ) ;
#254 = CARTESIAN_POINT ( 'NONE',  ( -3.000000000000000444, 0.000000000000000000, 0.000000000000000000 ) ) ;
#255 = DIRECTION ( 'NONE',  ( -1.000000000000000000, -0.000000000000000000, -0.000000000000000000 ) ) ;
#256 = CARTESIAN_POINT ( 'NONE',  ( 2.999999999999999112, 0.000000000000000000, 0.000000000000000000 ) ) ;
#257 = DIRECTION ( 'NONE',  ( -1.000000000000000000, -0.000000000000000000, -0.000000000000000000 ) ) ;
#258 = DIRECTION ( 'NONE',  ( 0.000000000000000000, 0.000000000000000000, 1.000000000000000000 ) ) ;
#259 = VERTEX_POINT ( 'NONE', #179 ) ;
#260 = ADVANCED_FACE ( 'NONE', ( #232, #1 ), #103, .F. ) ;
#261 = ORIENTED_EDGE ( 'NONE', *, *, #7, .T. ) ;
#262 = CC_DESIGN_APPROVAL ( #29, ( #82 ) ) ;
#263 = ORIENTED_EDGE ( 'NONE', *, *, #201, .F. ) ;
#264 = DIRECTION ( 'NONE',  ( -0.000000000000000000, 0.000000000000000000, 1.000000000000000000 ) ) ;
#265 = LINE ( 'NONE', #137, #125 ) ;
#266 = DIRECTION ( 'NONE',  ( 0.000000000000000000, 0.000000000000000000, 1.000000000000000000 ) ) ;
#267 = DIRECTION ( 'NONE',  ( 1.000000000000000000, 0.000000000000000000, 0.000000000000000000 ) ) ;
#268 = DATE_AND_TIME ( #69, #310 ) ;
#269 = DIRECTION ( 'NONE',  ( -0.000000000000000000, 0.000000000000000000, 1.000000000000000000 ) ) ;
#270 = APPROVAL_DATE_TIME ( #117, #331 ) ;
#271 = VECTOR ( 'NONE', #87, 1000.000000000000000 ) ;
#272 = MECHANICAL_CONTEXT ( 'NONE', #187, 'mechanical' ) ;
#273 =( NAMED_UNIT ( * ) PLANE_ANGLE_UNIT ( ) SI_UNIT ( $, .RADIAN. ) );
#274 = DIRECTION ( 'NONE',  ( 0.000000000000000000, 0.000000000000000000, 1.000000000000000000 ) ) ;
#275 = CARTESIAN_POINT ( 'NONE',  ( -1.614212418857619014, 0.000000000000000000, 10.00000000000000000 ) ) ;
#276 = CIRCLE ( 'NONE', #147, 10.00000000000000000 ) ;
#277 = DIRECTION ( 'NONE',  ( -1.000000000000000000, -0.000000000000000000, -0.000000000000000000 ) ) ;
#278 = ORGANIZATION ( 'UNSPECIFIED', 'UNSPECIFIED', '' ) ;
#279 = ORIENTED_EDGE ( 'NONE', *, *, #140, .F. ) ;
#280 = FACE_OUTER_BOUND ( 'NONE', #3, .T. ) ;
#281 = DIRECTION ( 'NONE',  ( -1.000000000000000000, -0.000000000000000000, -0.000000000000000000 ) ) ;
#282 = ORIENTED_EDGE ( 'NONE', *, *, #306, .T. ) ;
#283 = EDGE_CURVE ( 'NONE', #178, #106, #276, .T. ) ;
#284 = ORIENTED_EDGE ( 'NONE', *, *, #140, .T. ) ;
#285 = ORIENTED_EDGE ( 'NONE', *, *, #321, .F. ) ;
#286 = AXIS2_PLACEMENT_3D ( 'NONE', #11, #267, #163 ) ;
#287 = ORIENTED_EDGE ( 'NONE', *, *, #247, .T. ) ;
#288 = EDGE_LOOP ( 'NONE', ( #239, #34 ) ) ;
#289 = ORIENTED_EDGE ( 'NONE', *, *, #247, .F. ) ;
#290 = CARTESIAN_POINT ( 'NONE',  ( -1.614212418857619014, 0.000000000000000000, 0.000000000000000000 ) ) ;
#291 = CARTESIAN_POINT ( 'NONE',  ( 2.500000000000000888, 0.000000000000000000, 0.000000000000000000 ) ) ;
#292 = ADVANCED_FACE ( 'NONE', ( #205 ), #309, .F. ) ;
#293 = PERSON_AND_ORGANIZATION ( #74, #278 ) ;
#294 = CC_DESIGN_DATE_AND_TIME_ASSIGNMENT ( #197, #164, ( #82 ) ) ;
#295 = CARTESIAN_POINT ( 'NONE',  ( -3.000000000000000444, 0.000000000000000000, 10.00000000000000000 ) ) ;
#296 = SHAPE_DEFINITION_REPRESENTATION ( #104, #193 ) ;
#297 = CARTESIAN_POINT ( 'NONE',  ( 0.000000000000000000, 0.000000000000000000, 0.000000000000000000 ) ) ;
#298 = PERSON_AND_ORGANIZATION ( #74, #278 ) ;
#299 = PRODUCT_RELATED_PRODUCT_CATEGORY ( 'detail', '', ( #101 ) ) ;
#300 = CYLINDRICAL_SURFACE ( 'NONE', #33, 12.69999999999999929 ) ;
#301 = FACE_OUTER_BOUND ( 'NONE', #132, .T. ) ;
#302 = ADVANCED_FACE ( 'NONE', ( #280 ), #56, .F. ) ;
#303 = EDGE_LOOP ( 'NONE', ( #183, #86, #284, #285 ) ) ;
#304 = DIRECTION ( 'NONE',  ( 0.000000000000000000, 0.000000000000000000, 1.000000000000000000 ) ) ;
#305 = AXIS2_PLACEMENT_3D ( 'NONE', #241, #318, #264 ) ;
#306 = EDGE_CURVE ( 'NONE', #157, #170, #333, .T. ) ;
#307 = PRODUCT_DEFINITION_FORMATION_WITH_SPECIFIED_SOURCE ( 'ANY', '', #101, .NOT_KNOWN. ) ;
#308 = CARTESIAN_POINT ( 'NONE',  ( -2.500000000000000444, 1.224646799147353256E-15, -10.00000000000000000 ) ) ;
#309 = CYLINDRICAL_SURFACE ( 'NONE', #89, 10.00000000000000000 ) ;
#310 = LOCAL_TIME ( 9, 24, 53.00000000000000000, #246 ) ;
#311 = VERTEX_POINT ( 'NONE', #334 ) ;
#312 = ORIENTED_EDGE ( 'NONE', *, *, #237, .F. ) ;
#313 = VERTEX_POINT ( 'NONE', #308 ) ;
#314 = CIRCLE ( 'NONE', #286, 10.00000000000000000 ) ;
#315 = CYLINDRICAL_SURFACE ( 'NONE', #182, 10.00000000000000000 ) ;
#316 = VERTEX_POINT ( 'NONE', #78 ) ;
#317 = CARTESIAN_POINT ( 'NONE',  ( -1.614212418857619014, 0.000000000000000000, 10.00000000000000000 ) ) ;
#318 = DIRECTION ( 'NONE',  ( -1.000000000000000000, 0.000000000000000000, -0.000000000000000000 ) ) ;
#319 = DIRECTION ( 'NONE',  ( -1.000000000000000000, -0.000000000000000000, -0.000000000000000000 ) ) ;
#320 = PERSON_AND_ORGANIZATION ( #74, #278 ) ;
#321 = EDGE_CURVE ( 'NONE', #178, #84, #127, .T. ) ;
#322 = CARTESIAN_POINT ( 'NONE',  ( 2.500000000000000888, 0.000000000000000000, 10.00000000000000000 ) ) ;
#323 = COORDINATED_UNIVERSAL_TIME_OFFSET ( 8, 0, .AHEAD. ) ;
#324 = LOCAL_TIME ( 9, 24, 53.00000000000000000, #250 ) ;
#325 = DIRECTION ( 'NONE',  ( 0.000000000000000000, 0.000000000000000000, 1.000000000000000000 ) ) ;
#326 = ADVANCED_FACE ( 'NONE', ( #252 ), #48, .T. ) ;
#327 = DIRECTION ( 'NONE',  ( -1.000000000000000000, -0.000000000000000000, -0.000000000000000000 ) ) ;
#328 = DIRECTION ( 'NONE',  ( -1.000000000000000000, -0.000000000000000000, -0.000000000000000000 ) ) ;
#329 = DIRECTION ( 'NONE',  ( -1.000000000000000000, -0.000000000000000000, -0.000000000000000000 ) ) ;
#330 = EDGE_CURVE ( 'NONE', #316, #31, #118, .T. ) ;
#331 = APPROVAL ( #43, 'UNSPECIFIED' ) ;
#332 = ADVANCED_FACE ( 'NONE', ( #301 ), #98, .F. ) ;
#333 = CIRCLE ( 'NONE', #222, 10.00000000000000000 ) ;
#334 = CARTESIAN_POINT ( 'NONE',  ( 3.000000000000000000, 0.000000000000000000, 12.69999999999999929 ) ) ;
#335 = CC_DESIGN_PERSON_AND_ORGANIZATION_ASSIGNMENT ( #221, #46, ( #82 ) ) ;
ENDSEC;
END-ISO-10303-21;
